Crea sito

    Per tutti i Bassisti che amano la buona Musica

     

    Mondo Musicale  vi consiglia Cosmic Girl di Jamiroquai
                           

                                                                                                                                                                                                       G --------------------
    D-----2--0-2-3-4-----
    A ---3-----------4-0-2
    E 0-3-----------------

    chorus

    G -------------------------4-----666---------
    D -----444-----------------------------------
    A -----------------------2---2/4-----4-4-4-4-
    E 4--2------2-2-2-2--2-4---------------------

     

    G --6---3---4--- 
    D -------------4
    A 4---1---2-----
    E -----------2--
     

    Mondo Musicale vi consiglia Bob Marley

     

    Song:jammin
    Band:bob marley
    Album:greatest hits
    tabbed Mondo musicale
    -------------------------------------
    -----------2-2-222-5-5-555-4-4-444-4-
    -2-2-222-2---------------------------  repeat many times
    -------------------------------------

    jammin we jammin
    -----------------------------------
    ----022-4---022-5-5-5-0-4-4---44-4-
    -22------22-----------------4------  repeat once
    -----------------------------------

    -------------------------------------
    -----------2-2-222-5-5-555-4-4-444-4-
    -2-2-222-2---------------------------  repeat many times
    -------------------------------------

    -------
    -------
    -2---2-
    -------

     

    Mondo Musicale vi consiglia Beat It di Michael Jackson

     

     

    G-------------------------------------------------                   
    D--------5-2-4-2-0-0---------------------------
    A------2------------------------------------------
    E--0-3--------------------------------------------


    G-------------------------------------------------
    D--------5-2-4-2-0--------------------------------
    A------2------------------------------------------
    E--0-3--------------------------------------------   

       

    G-------------------------------------------------
    D--------5-2-4-2-0-0------------------------------
    A------2------------------------------------------
    E--0-3--------------------------------------------          

          

    G-------------------------------------------------
    D--------5-2-4-2-0--------------------------------
    A------2------------------------------------------
    E--0-3--------------------------------------------


    G-------------------------------------------------
    D-------------------------------------------------  (10x)
    A-6-6--6----4-4--4--------------------------------
    E-------------------------------------------------                 
    G-------------------------------------------------
    D--------5-2-4-2-0-0------------------------------
    A------2------------------------------------------
    E--0-3--------------------------------------------  


    G-------------------------------------------------
    D--------5-2-4-2-0--------------------------------
    A------2------------------------------------------
    E--0-3--------------------------------------------

    G-------------------------------------------------
    D--------5-2-4-2-0-0------------------------------
    A------2------------------------------------------
    E--0-3--------------------------------------------

    G-------------------------------------------------
    D--------5-2-4-2-0--------------------------------
    A------2------------------------------------------
    E--0-3--------------------------------------------

    G-------------------------------------------------
    D--------5-2-4-2-0-0------------------------------
    A------2------------------------------------------
    E--0-3--------------------------------------------  
    G-------------------------------------------------
    D--------5-2-4-2-0--------------------------------
    A------2------------------------------------------
    E--0-3--------------------------------------------

    G-------------------------------------------------
    D-------------------------------------------------  (8x)
    A-6-6--6----4-4--4--------------------------------
    E-------------------------------------------------

    G-------------------------------------------------
    D--------5-2-4-2-0-0------------------------------
    A------2------------------------------------------
    E--0-3--------------------------------------------                      

    G-------------------------------------------------
    D--------5-2-4-2-0--------------------------------                               
    A------2------------------------------------------
    E--0-3--------------------------------------------                       

    G-------------------------------------------------
    D--------5-2-4-2-0-0------------------------------
    A------2------------------------------------------
    E--0-3--------------------------------------------                               

    G-------------------------------------------------
    D--------5-2-4-2-0--------------------------------
    A------2------------------------------------------
    E--0-3--------------------------------------------                      

    G-------------------------------------------------
    D--------5-2-4-2-0-0------------------------------
    A------2------------------------------------------
    E--0-3--------------------------------------------                               

    G-------------------------------------------------
    D--------5-2-4-2-0--------------------------------
    A------2------------------------------------------
    E--0-3--------------------------------------------                     

    G-------------------------------------------------
    D--------5-2-4-2-0-0------------------------------
    A------2------------------------------------------
    E--0-3--------------------------------------------                       

    G-------------------------------------------------
    D--------5-2-4-2-0--------------------------------
    A------2------------------------------------------
    E--0-3--------------------------------------------                       

    G-------------------------------------------------
    D------------------------------------------------- (5x)
    A-------------------------------------------------
    E-0-0-0--0-0-0------------------------------------                      

    G-------------------------------------------------
    D-------------------------------------------------
    A-------------------------------------------------
    E-0-0-0--0-0--------------------------------------                      

    G-------------------------------------------------
    D------------------------------------------------- (10X)
    A------------------------------------------------- (Note Continue Throw-out solo)
    E-0-0-0--0-0-0------------------------------------                                 


    (Continue  for 20x)

    G-------------------------------------------------
    D--------5-2-4-2-0-0------------------------------
    A------2------------------------------------------
    E--0-3--------------------------------------------    

    G-------------------------------------------------      
    D--------5-2-4-2-0--------------------------------
    A------2------------------------------------------
    E--0-3--------------------------------------------